guitar duo title 8

(/) Slide Up  (\) Slide Down  (h) Hammer On  (p) Pull Off  (b) Bend (r) Release (v) Vibrato
Guitar #1

E|--------------------------------
B|---------9------12------11------
G|-----10-----10------10------10--
D|--8-----------------------------
A|--------------------------------
E|--------------------------------

Guitar #2

E|-----------------------
B|-----------------------
G|-----------------------
D|-----------------------
A|--------------1--4--4--
E|--1--3--1--3-----4--4--
http://www.guitartabcreator.com
Guitar Tab Creator is intended to store guitar tab created through the tool. It currently does not support in-line text editing. Any text you place in here will be lost. If you need to comment on your tab, please use the "Tab Notes" section located below.