TBAFLBeat2 - Chorus **3rd FretCapo**

(/) Slide Up  (\) Slide Down  (h) Hammer On  (p) Pull Off  (b) Bend (r) Release (v) Vibrato

E|-------------------------------------------------
B|-----------------------------10--11--13--11--10--
G|----------10--10h12--10--12----------------------
D|------12-----------------------------------------
A|--10---------------------------------------------
E|-------------------------------------------------



E|-------------------------------------------------10/
B|-----------------------------10--11--13--11--13-----
G|----------10--10h12--10--12-------------------------
D|------12--------------------------------------------
A|--10------------------------------------------------
E|----------------------------------------------------
http://www.guitartabcreator.com
Guitar Tab Creator is intended to store guitar tab created through the tool. It currently does not support in-line text editing. Any text you place in here will be lost. If you need to comment on your tab, please use the "Tab Notes" section located below.