TBAFLBeat2 **3rd FretCapo**

(/) Slide Up  (\) Slide Down  (h) Hammer On  (p) Pull Off  (b) Bend (r) Release (v) Vibrato
E|----3---------5----
B|----3----6----6----
G|----3----3----5----
D|----5----3----3----
A|----5----5----3----
E|----3----6----3----



E|--3--3--3--3------3--3--3--3---------------------5----5----5--
B|--3--3--3--3------3--3--3--3------6--6--6--------6----6----6--
G|--3--3--3--3------3--3--3--3------3--3--3--------5----5----5--
D|--5--5--5--5------5--5--5--5------3--3--3--------3----3----3--
A|--5--5--5--5------5--5--5--5------5--5--5--------3----3----3--
E|--3--3--3--3------3--3--3--3------6--6--6---------------------
http://www.guitartabcreator.com
Guitar Tab Creator is intended to store guitar tab created through the tool. It currently does not support in-line text editing. Any text you place in here will be lost. If you need to comment on your tab, please use the "Tab Notes" section located below.