Marshall Drums Lead

(/) Slide Up  (\) Slide Down  (h) Hammer On  (p) Pull Off  (b) Bend (r) Release (v) Vibrato


E|---------------------------------------------------------------------------
B|---------------------------------------------------------------------------
G|-------10----------10----------10----------10-12-------10-12-------10------
D|-10-12----12-10-12----12-10-12----12-10-12-------10-12-------10-12----12---
A|---------------------------------------------------------------------------
E|---------------------------------------------------------------------------



E|-------------------------------------------------------------------------------
B|----------10----------10-------------11-11/13-11-10-11-10----------------------
G|-------10----------10----------10-12----------------------12-10-12b13-12-10----
D|-10-12-------10-12-------10-12----------------------------------------------12-
A|-------------------------------------------------------------------------------
E|-------------------------------------------------------------------------------
http://www.guitartabcreator.com
Guitar Tab Creator is intended to store guitar tab created through the tool. It currently does not support in-line text editing. Any text you place in here will be lost. If you need to comment on your tab, please use the "Tab Notes" section located below.