Last Chance - Verse and Chorus

(/) Slide Up  (\) Slide Down  (h) Hammer On  (p) Pull Off  (b) Bend (r) Release (v) Vibrato


E|-------------------------------------------
B|-------------------------------------------
G|---------------------------------------11--
D|-------------------------------10--12--12--
A|-------------------------------10--10--10--
E|--10--0--0--0--0--10--0--0--0--10--10--10--



E|------------------------------------------------------------------------------------
B|---------------------------8--------5-----------------------------------------------
G|----------11--12--------9--9--------x--4--------------------------------------------
D|--10--12--12--12--7--9--9--9--3--5--5--5--2--0--2--0--2--0--2--0--2--0--2--0--2--5--
A|--10--10--10--10--7--7--7--7--3--3--3--3--2--0--2--0--2--0--2--0--2--0--2--0--2--5--
E|--10--10--10--10--7--7--7--7--3--3--3--3--2--0--2--0--2--0--2--0--2--0--2--0--2--5--




http://www.guitartabcreator.com
Guitar Tab Creator is intended to store guitar tab created through the tool. It currently does not support in-line text editing. Any text you place in here will be lost. If you need to comment on your tab, please use the "Tab Notes" section located below.