my valentine martina Mcbride

(/) Slide Up  (\) Slide Down  (h) Hammer On  (p) Pull Off  (b) Bend (r) Release (v) Vibrato


E|---------------------------------------------------------------------------------------
B|-----------1--0h1--3--1-----------1--0h1--3--------------------------------------------
G|--------0----------------------2-------------2-----------2--------------0-----0-----0--
D|-----2----------------------2-------------------------3-----3--------0-----------0-----
A|--3----------------------0-------------------------3--------------2--------------------
E|------------------------------------------------1--------------3-----------3-----------



E|---------------------------------------------0-----------------------------------------
B|-----------1--0h1--3--1-----------1--0h1--3--------------------------------------------
G|--------0----------------------2-------------------------2--------------0-----0-----0--
D|-----2----------------------2-------------------------3-----3--------0-----------0-----
A|--3----------------------0-------------------------3--------------2--------------------
E|------------------------------------------------1--------------3-----------3-----------



E|--3--3--3--3/5--3-----------1--1/3--3-----------3--3/5--3-----------1-----0-----------
B|--3---------------------------------------------0----------------------------0--1-----
G|-----------------------------------------------------------------0--------------------
D|-------------------------0-------------------0----------------0-----------------------
A|----------------------0-------------------0----------------0--------------------------
E|--0----------------0-------------------0--------0----------------------0--------------



E|--0--0-----1-------------------1/3--3--1--------------------1--3--0--
B|--------------1--------0h1----------------1-----------1-----1--3--1--
G|--------------------0------------------------------------0--1--0--0--
D|-----------------0---------------------------------0--------3--0--2--
A|------------------------------------------------0-----------3--2--3--
E|--------0-------------------0----------------0--------------1--3--x--
http://www.guitartabcreator.com
Guitar Tab Creator is intended to store guitar tab created through the tool. It currently does not support in-line text editing. Any text you place in here will be lost. If you need to comment on your tab, please use the "Tab Notes" section located below.