Like A Lion

(/) Slide Up  (\) Slide Down  (h) Hammer On  (p) Pull Off  (b) Bend (r) Release (v) Vibrato

INTRO/TURN-AROUND
Quarter Note Delay

E|--------------------------------------------------------------------------------------------------
B|--8--8--8--5--5--5--5--5--8--8--8-----------------------------------------------------------------
G|-----------------------------------4--4--4--4--4--4--4--5--5--5--5--5--5--5--5--5--5--5--5--5--5--
D|--------------------------------------------------------------------------------------------------
A|--------------------------------------------------------------------------------------------------
E|--------------------------------------------------------------------------------------------------

VERSE 2
Dotted Eighth Delay

E|-----------------
B|-----------------
G|--12--10--9--10--
D|-----------------
A|-----------------
E|-----------------

PRE-CHORUS
Dotted Eighth Delay

E|---------------------------------------------------------------------------------------------------
B|--8--8--8--8--8--8--8--8--8--8--8--8--8--5--5--13--13--13--13--13--13--13--13--13--13--13--13--13--
G|---------------------------------------------------------------------------------------------------
D|---------------------------------------------------------------------------------------------------
A|---------------------------------------------------------------------------------------------------
E|---------------------------------------------------------------------------------------------------



E|---------------------------------------------------------------------------------------------------
B|--12--12--12--8--8--8--8--8--8--8--8--8--8--8--8--8--5--5--5--12--12--12--12--12b12b12b12b12b12b---
G|---------------------------------------------------------------------------------------------------
D|---------------------------------------------------------------------------------------------------
A|---------------------------------------------------------------------------------------------------
E|---------------------------------------------------------------------------------------------------

CHORUS
Dotted Eighth Delay

E|--------------------------------------------------13--13--12--12--
B|--14--14--14--14--14--14--14--14--14--14--14--14------------------
G|--13--13--13--13--13--13--13--13--13--13--13--13------------------
D|------------------------------------------------------------------
A|------------------------------------------------------------------
E|------------------------------------------------------------------



E|------------------------------------------------------------------
B|--12--12--12--12--12--12--12--12--12--12--12--12--12--13--13--13--
G|------------------------------------------------------------------
D|------------------------------------------------------------------
A|------------------------------------------------------------------
E|------------------------------------------------------------------

VERSE 3
Dotted Eighth Delay

E|--8--8--5--5--------------------
B|--------------8--8--5--5--------
G|--------------------------7--5--
D|--------------------------------
A|--------------------------------
E|--------------------------------

http://www.guitartabcreator.com
Guitar Tab Creator is intended to store guitar tab created through the tool. It currently does not support in-line text editing. Any text you place in here will be lost. If you need to comment on your tab, please use the "Tab Notes" section located below.