Kingdom Come

(/) Slide Up  (\) Slide Down  (h) Hammer On  (p) Pull Off  (b) Bend (r) Release (v) Vibrato

INTRO/TURN-AROUND

E|--------------------------------------------------
B|--7--7--7--5--5--5--7--7--7--5--5--5--7--7--5--7--
G|--------------------------------------------------
D|--------------------------------------------------
A|--------------------------------------------------
E|--------------------------------------------------



E|-----------------------------------------------------
B|--10--10--10--5--5--5--7--7--7--5--5--5--7--7--5--7--
G|-----------------------------------------------------
D|-----------------------------------------------------
A|-----------------------------------------------------
E|-----------------------------------------------------



E|-----------------------------------------------------
B|--12--12--12--5--5--5--7--7--7--5--5--5--7--7--5--5--
G|-----------------------------------------------------
D|-----------------------------------------------------
A|-----------------------------------------------------
E|-----------------------------------------------------



E|--------------------------------------------------
B|--------------------------------------------------
G|--7--7--7--6--6--6--4--4--4--7--7--7--6--6--4--4--
D|--------------------------------------------------
A|--------------------------------------------------
E|--------------------------------------------------

PRE-CHORUS

E|------------------------------9--9--9--9--10--10--10--10--
B|--8--8--8--8--10--10--10--10------------------------------
G|----------------------------------------------------------
D|----------------------------------------------------------
A|----------------------------------------------------------
E|----------------------------------------------------------



E|------------------7--7--7--7--9--9--9--9--10--10--10--10--
B|--10--10--10--10------------------------------------------
G|----------------------------------------------------------
D|----------------------------------------------------------
A|----------------------------------------------------------
E|----------------------------------------------------------

CHORUS

E|---------------
B|--7--8--10--8--
G|--7--7--7---7--
D|---------------
A|---------------
E|---------------

SOLO

E|--7--7--9---7--
B|--7--8--10--8--
G|--7--7--9---7--
D|---------------
A|---------------
E|---------------
http://www.guitartabcreator.com
Guitar Tab Creator is intended to store guitar tab created through the tool. It currently does not support in-line text editing. Any text you place in here will be lost. If you need to comment on your tab, please use the "Tab Notes" section located below.