Jesus Paid It All

(/) Slide Up  (\) Slide Down  (h) Hammer On  (p) Pull Off  (b) Bend (r) Release (v) Vibrato

CHORUS

E|--------------------------------------------------------------2-----------
B|-----------------------------------------------------------0-----0-----0--
G|--11--11--11--11--11--11--8--8--9--8--9--4--4--4--4--4--3-----------3-----
D|--------------------------------------------------------------------------
A|--------------------------------------------------------------------------
E|--------------------------------------------------------------------------



E|-----------------------------------------------7-----6-----7-----6-----
B|--------------------------------------------------7-----7-----7-----7--
G|--4--4--4--4--4--4--9--9--9--9--8--8--8--8--6--------------------------
D|-----------------------------------------------------------------------
A|-----------------------------------------------------------------------
E|-----------------------------------------------------------------------
http://www.guitartabcreator.com
Guitar Tab Creator is intended to store guitar tab created through the tool. It currently does not support in-line text editing. Any text you place in here will be lost. If you need to comment on your tab, please use the "Tab Notes" section located below.