Endless Light - C

(/) Slide Up  (\) Slide Down  (h) Hammer On  (p) Pull Off  (b) Bend (r) Release (v) Vibrato


E|--8--8--8-----------
B|--8--8--8--6--8--5--
G|-----------5--5--5--
D|--------------------
A|--------------------
E|--------------------



E|---------------------------------------------------------------------------------------------
B|--8--8--8--8--8--8--8--8--8--8--------10--10--10--10--10--10--10---------12--12--13--13--13--
G|--5--5--5--5--5--5--5--5--5--5--5/10--10--10--10--10--10--10--10--10/12--12--12--14--14--14--
D|---------------------------------------------------------------------------------------------
A|---------------------------------------------------------------------------------------------
E|---------------------------------------------------------------------------------------------



E|-------------------------
B|--13--13--6--6--6--6--6--
G|--14--14--7--7--5--5--5--
D|-------------------------
A|-------------------------
E|-------------------------



E|--8--8--10--8-----8--8--10--
B|--6--5--8---8h10--6--5--8---
G|----------------------------
D|----------------------------
A|----------------------------
E|----------------------------



E|--------------------------------
B|--5--5--5--------5--5--5--------
G|-----------7--5-----------7--5--
D|--------------------------------
A|--------------------------------
E|--------------------------------



E|--8--8--10--8-----8--8-----10--8--10--8--10--8--10--12--10--8-----
B|--6--5--8---8h10--6--8h10--8---8--8---8--8---8--8---8---8---8-----
G|------------------------------------------------------------------
D|------------------------------------------------------------------
A|------------------------------------------------------------------
E|------------------------------------------------------------------



E|--12--12--12----------12--12--
B|--------------15--13--13--12--
G|------------------------------
D|------------------------------
A|------------------------------
E|------------------------------



E|--------------------------------------------------
B|--------------------------------------------------
G|--12----------------------12----------------------
D|------14------12--14----------14------12--14------
A|----------15----------15----------15----------15--
E|--------------------------------------------------
http://www.guitartabcreator.com
Guitar Tab Creator is intended to store guitar tab created through the tool. It currently does not support in-line text editing. Any text you place in here will be lost. If you need to comment on your tab, please use the "Tab Notes" section located below.