Whiskey In The Jar Solo

(/) Slide Up  (\) Slide Down  (h) Hammer On  (p) Pull Off  (b) Bend (r) Release (v) Vibrato

Stave 1:

E|--7--8--10--8--7h8p7------7-------------------7--8--10--
B|----------------------10-----10--8--7--8--10------------
G|--------------------------------------------------------
D|--------------------------------------------------------
A|--------------------------------------------------------
E|--------------------------------------------------------

Stave 2:

E|---------10--12--12--10--12--15--12--12--12p10--12--
B|--10/12---------------------------------------------
G|----------------------------------------------------
D|----------------------------------------------------
A|----------------------------------------------------
E|----------------------------------------------------

Stave 3:

E|--7--10--8--7---------------
B|---------------10--8--7-----
G|-------------------------9--
D|----------------------------
A|----------------------------
E|----------------------------

Stave 4:

E|--8p7-------------------------
B|-------10--8--7---------------
G|-----------------9--7--5--4v--
D|------------------------------
A|------------------------------
E|------------------------------

http://www.guitartabcreator.com
Guitar Tab Creator is intended to store guitar tab created through the tool. It currently does not support in-line text editing. Any text you place in here will be lost. If you need to comment on your tab, please use the "Tab Notes" section located below.