Spanish-style guitar solo

(/) Slide Up  (\) Slide Down  (h) Hammer On  (p) Pull Off  (b) Bend (r) Release (v) Vibrato


E|-----9--9--7--9--9--10--12--10--9------------------------
B|--7--------------------------------12--10--9-------------
G|----------------------------------------------11--9--11--
D|---------------------------------------------------------
A|---------------------------------------------------------
E|---------------------------------------------------------



E|----------------------------------------------------------------------------------
B|------9--10--12--10--9------9-----------------------------------------------------
G|--11--------------------11-----11--9--11--11--9-----------------------------------
D|-------------------------------------------------12--11--9------------------------
A|------------------------------------------------------------12--11--12--11--9--9--
E|----------------------------------------------------------------------------------
http://www.guitartabcreator.com
Guitar Tab Creator is intended to store guitar tab created through the tool. It currently does not support in-line text editing. Any text you place in here will be lost. If you need to comment on your tab, please use the "Tab Notes" section located below.