Picking Practice (Pachelbel Canon-esque) 2 with melody line

(/) Slide Up  (\) Slide Down  (h) Hammer On  (p) Pull Off  (b) Bend (r) Release (v) Vibrato


E|------------10--8--7----------------------------------
B|----------------------10--8-----------10--8--7--------
G|---------0-------------------------7------------9--7--
D|------9-------------------------0---------------------
A|--10-------------------------9------------------------
E|------------------------------------------------------



E|--------0--3--2--0-----------------5--3--2--------
B|-----0--------------3--0--------3-----------5--3--
G|--2-----------------------------------------------
D|-----------------------------4--------------------
A|--------------------------5-----------------------
E|--------------------------------------------------



E|-----------3--2--0--------------------------------
B|--------1-----------3--1-----------3--1--0--------
G|--------------------------------0-----------2--0--
D|-----2-----------------------0--------------------
A|--3-----------------------------------------------
E|--------------------------3-----------------------



E|-----------3--2--0-----------------5--3--2--3--5--
B|--------1-----------3--1--------3-----------------
G|--------------------------------------------------
D|-----2-----------------------4--------------------
A|--3-----------------------5-----------------------
E|--------------------------------------------------
http://www.guitartabcreator.com
Guitar Tab Creator is intended to store guitar tab created through the tool. It currently does not support in-line text editing. Any text you place in here will be lost. If you need to comment on your tab, please use the "Tab Notes" section located below.