Picking Practice (Pachelbel Canon-esque)

(/) Slide Up  (\) Slide Down  (h) Hammer On  (p) Pull Off  (b) Bend (r) Release (v) Vibrato


E|---------------------------------------------------
B|---------------8-----------------------7-----------
G|---------0--------0-----0--------7--------7-----0--
D|------9-----9--------9--------0-----0--------0-----
A|--10-----------------------9-----------------------
E|---------------------------------------------------



E|--------------0-----------------------------------
B|--------0--------0--------------------3-----------
G|-----0-----0-----------0--------0--------0-----0--
D|--2-----------------2--------4-----4--------4-----
A|--------------------------5-----------------------
E|--------------------------------------------------



E|--------------------------------------------------
B|--------------1-----------------------0-----------
G|--------0--------0-----0--------0--------0-----0--
D|-----2-----2--------2--------0-----0--------0-----
A|--3-----------------------------------------------
E|--------------------------3-----------------------



E|--------------------------------------------------
B|--------------1-----------------------3-----------
G|--------0--------0-----0--------0--------0-----0--
D|-----2-----2--------2--------4-----4--------4-----
A|--3-----------------------5-----------------------
E|--------------------------------------------------
http://www.guitartabcreator.com
Guitar Tab Creator is intended to store guitar tab created through the tool. It currently does not support in-line text editing. Any text you place in here will be lost. If you need to comment on your tab, please use the "Tab Notes" section located below.