Nirvana - Smells Like Teen Spirit Solo

(/) Slide Up  (\) Slide Down  (h) Hammer On  (p) Pull Off  (b) Bend (r) Release (v) Vibrato


E|------------------------------------------------------------
B|-----4--6--------4/6--4-------------------------------------
G|--5----------------------6--5--6--5--3-----3--3h5--3--------
D|-----------6--6-------------------------6-------------6--5--
A|------------------------------------------------------------
E|------------------------------------------------------------



E|---------------------------------------
B|---------------------------------------
G|---------------------------------------
D|--5h6--5--5h6--5--5h6--5--5h6--5--5\3--
A|---------------------------------------
E|---------------------------------------
http://www.guitartabcreator.com
Guitar Tab Creator is intended to store guitar tab created through the tool. It currently does not support in-line text editing. Any text you place in here will be lost. If you need to comment on your tab, please use the "Tab Notes" section located below.