Movin n Groovin in D Major

(/) Slide Up  (\) Slide Down  (h) Hammer On  (p) Pull Off  (b) Bend (r) Release (v) Vibrato


E|-----------------10--10--10--10--10--------------10-----------
B|-----------------10--10--10--10--10--------------10-----------
G|---------11--12----------------------12--11--12--11-----------
D|--10/12----------------------------------------------0--0--0--
A|--------------------------------------------------------------
E|--------------------------------------------------------------



E|----------------------------------------------
B|----------------------------------------------
G|----------------------------------------------
D|----------------------------------------------
A|----5--5----5--5--5--5----5--5----5--5--5--5--
E|--2/3--3--2/3--3--3--3--2/3--3--2/3--3--3--3--



E|----------------------------------------------
B|----------------------------------------------
G|----------------------------------------------
D|----7--7----7--7--7--7----7--7----7--7--7--7--
A|--4/5--5--4/5--5--5--5--4/5--5--4/5--5--5--5--
E|----------------------------------------------



E|----------------------------------------------
B|----------------------------------------------
G|----------------------------------------------
D|----------------------------------------------
A|----7--7----7--7--7--7----5--5----5--5--5--5--
E|--4/5--5--4/5--5--5--5--2/3--3--2/3--3--3--3--



E|--------------------------
B|--------------------------
G|--------------------------
D|----7--7----7--7----7--7--
A|--4/5--5--4/5--5--4/5--5--
E|--------------------------
http://www.guitartabcreator.com
Guitar Tab Creator is intended to store guitar tab created through the tool. It currently does not support in-line text editing. Any text you place in here will be lost. If you need to comment on your tab, please use the "Tab Notes" section located below.