Major Pentatonic Riffing

(/) Slide Up  (\) Slide Down  (h) Hammer On  (p) Pull Off  (b) Bend (r) Release (v) Vibrato


E|--9--12--9------9--------------------------9--12--9------9--------------------------
B|------------12-----12--9-----------------------------12-----12--9------9--9--9--12--
G|--------------------------11--9--9--9--11--------------------------11---------------
D|------------------------------------------------------------------------------------
A|------------------------------------------------------------------------------------
E|------------------------------------------------------------------------------------



E|--9--12--9------9---------------------------------------------------------------
B|------------12-----12--9-------------------9--12--9------9--12--9---------------
G|--------------------------11--9--9--9--11------------11------------11--9--9--9--
D|--------------------------------------------------------------------------------
A|--------------------------------------------------------------------------------
E|--------------------------------------------------------------------------------



E|----------------------------------------------------------------------------------------
B|----------------------------------------------------------------------------------------
G|------9------------------------------------------9--------------------------------------
D|--11-----11--9--11--9------------------------11-----11--9--11--9---------------------9--
A|-----------------------11--9--------------9-----------------------11--9--11--11--11-----
E|------------------------------12--12--12------------------------------------------------



E|-------------------------------------------------------------------------------------
B|-------------------------------------------------------------------------------------
G|------9------------------------------------------------------------------------------
D|--11-----11--9--11--9----------------------------9-------------9---------------------
A|-----------------------11--9--------------9--11-----11--9--11-----11--9--------------
E|------------------------------12--12--12---------------------------------12--12--12--



E|---------------------------------------------------------------------------
B|---------------------------------------------------------------------------
G|----------------------------9----------------------------------------------
D|---------------------9--11-----11--11---------------------9--11--9---------
A|----------9--11--11----------------------------9--11--11------------11--9--
E|--12--12-------------------------------12--12------------------------------



E|------------------------------------------------------------------------------
B|------------------------------------------------------------------------------
G|----------------------------9----------9--11--9------9------------------------
D|---------------------9--11-----11--11------------11-----11--9-----------------
A|----------9--11--11--------------------------------------------11--9----------
E|--12--12--------------------------------------------------------------12--12--
http://www.guitartabcreator.com
Guitar Tab Creator is intended to store guitar tab created through the tool. It currently does not support in-line text editing. Any text you place in here will be lost. If you need to comment on your tab, please use the "Tab Notes" section located below.