Iris Solo Idea

(/) Slide Up  (\) Slide Down  (h) Hammer On  (p) Pull Off  (b) Bend (r) Release (v) Vibrato


E|-------------------------------------------------------------------------------------------------
B|-------------------------------------------------------------------------------------------------
G|--2/7--7--7--6\2--2/7--7--7--7--9/11-----------7--7--7--6--4--2--2/11--11--11--9--9--9--7--7--7--
D|--------------------------------------9--9--7----------------------------------------------------
A|-------------------------------------------------------------------------------------------------
E|-------------------------------------------------------------------------------------------------



E|-----------------------
B|-----------------------
G|--7--6--4--------------
D|-----------7--5--4--0--
A|-----------------------
E|-----------------------
http://www.guitartabcreator.com
Guitar Tab Creator is intended to store guitar tab created through the tool. It currently does not support in-line text editing. Any text you place in here will be lost. If you need to comment on your tab, please use the "Tab Notes" section located below.