Folk Rock Picking Amended

(/) Slide Up  (\) Slide Down  (h) Hammer On  (p) Pull Off  (b) Bend (r) Release (v) Vibrato


E|--5--------5--7--------7--9--------9--5--------5--5--------5--7--------7--9--------9--7--------7--
B|--5-----5-----7-----7-----9-----9-----7-----7-----5-----5-----7-----7-----9-----9-----7-----7-----
G|--6--6--------7--7--------9--9--------7--7--------6--6--------7--7--------9--9--------7--7--------
D|--------------------------------------------------------------------------------------------------
A|--------------------------------------------------------------------------------------------------
E|--------------------------------------------------------------------------------------------------



E|-----------7--------------------9-------------------7--------------------9-------------
B|-----9--------9---------10---------10---------9--------9---------10---------10---------
G|--9-----9--------9--11------11---------11--9-----9--------9--11------11---------11-----
D|---------------------------------------------------------------------------------------
A|---------------------------------------------------------------------------------------
E|---------------------------------------------------------------------------------------



E|-----------7--------------------9-------------------5-----------------5--------
B|-----9--------9---------10---------10---------7--------7--------7--------7-----
G|--9-----9--------9--11------11---------11--6-----6--------6--6-----6--------6--
D|-------------------------------------------------------------------------------
A|-------------------------------------------------------------------------------
E|-------------------------------------------------------------------------------



E|-----------5-----------------5-----------------5-----------------5--------
B|-----5--------5--------3--------3--------5--------5--------3--------3-----
G|--6-----6--------6--4-----4--------4--6-----6--------6--4-----4--------4--
D|--------------------------------------------------------------------------
A|--------------------------------------------------------------------------
E|--------------------------------------------------------------------------



E|-----------5-----------------5-----------------5-----------------5--------
B|-----5--------5--------3--------3--------2--------2--------2--------2-----
G|--6-----6--------6--4-----4--------4--2-----2--------2--2-----2--------2--
D|--------------------------------------------------------------------------
A|--------------------------------------------------------------------------
E|--------------------------------------------------------------------------
http://www.guitartabcreator.com
Guitar Tab Creator is intended to store guitar tab created through the tool. It currently does not support in-line text editing. Any text you place in here will be lost. If you need to comment on your tab, please use the "Tab Notes" section located below.