El Paso Intro Riff

(/) Slide Up  (\) Slide Down  (h) Hammer On  (p) Pull Off  (b) Bend (r) Release (v) Vibrato


E|------------------------------7--------
B|--------7--10--7-----------8-----8-----
G|-----7------------7-----9-----------9--
D|--7------------------9-----------------
A|---------------------------------------
E|---------------------------------------



E|--10--10--10--10--9---7--7--5--3--2--
B|--12--12--12--12--10--8--8--7--5--3--
G|-------------------------------------
D|-------------------------------------
A|-------------------------------------
E|-------------------------------------
http://www.guitartabcreator.com
Guitar Tab Creator is intended to store guitar tab created through the tool. It currently does not support in-line text editing. Any text you place in here will be lost. If you need to comment on your tab, please use the "Tab Notes" section located below.