Country Blues Rock 1

(/) Slide Up  (\) Slide Down  (h) Hammer On  (p) Pull Off  (b) Bend (r) Release (v) Vibrato

E|-----------------------------------------------------------------------------------------
B|-----2--------------------2--------------------2-----------------------------------------
G|-----2--------------------2--------------------2-----------------------------------------
D|-----2-----------2--4-----2-----------2--4-----2-----------2--4-----------2-----------2--
A|--0-----0--3--4--------0-----0--3--4--------0-----0--3--4--------------------------------
E|-----------------------------------------------------------------0--3--4-----0--3--4-----



E|--------------------
B|--------------------
G|-----1--1--1--1--1--
D|-----2--0--2--0--2--
A|-----2--0--2--0--2--
E|--0-----------------



E|-----2--0--2--0--2--
B|-----1--1--1--1--1--
G|-----2--0--2--0--2--
D|--0-----------------
A|--------------------
E|--------------------



E|--------------------------------------------------------------------------
B|-----2--------------------2--------------------2-----------------2--0--2--
G|-----2--------------------2--------------------2-----------------2--0--2--
D|-----2-----------2--4-----2-----------2--4-----2-----------2--4--2--0--2--
A|--0-----0--3--4--------0-----0--3--4--------0-----0--3--4--------0--0--0--
E|--------------------------------------------------------------------3-----
http://www.guitartabcreator.com
Guitar Tab Creator is intended to store guitar tab created through the tool. It currently does not support in-line text editing. Any text you place in here will be lost. If you need to comment on your tab, please use the "Tab Notes" section located below.