On The Border (Verse lead melody) - Al Stewart

(/) Slide Up  (\) Slide Down  (h) Hammer On  (p) Pull Off  (b) Bend (r) Release (v) Vibrato

E|-----------------------------------------------------------------------------
B|-----------------------------------------------------------------------------
G|-----6--4--2--------------2-----------------6--4--2--------------2-----------
D|--4-----------6--4--2--4-----4--2--4--4--4-----------6--4--2--4-----4--2--4--
A|-----------------------------------------------------------------------------
E|-----------------------------------------------------------------------------



E|-----------------------------------------------------------------------------
B|-----------------------------------5-----------3-----------2--------------0--
G|--------6--4--2--------------6--6-----6--4--4-----4--2--2-----2--1--1--2-----
D|--4--4-----------6--4--6--7--------------------------------------------------
A|-----------------------------------------------------------------------------
E|-----------------------------------------------------------------------------



E|--------------
B|--------------
G|--2-----------
D|-----4--2--4--
A|--------------
E|--------------



http://www.guitartabcreator.com
Guitar Tab Creator is intended to store guitar tab created through the tool. It currently does not support in-line text editing. Any text you place in here will be lost. If you need to comment on your tab, please use the "Tab Notes" section located below.