On The Border (Bridge melody) - Al Stewart

(/) Slide Up  (\) Slide Down  (h) Hammer On  (p) Pull Off  (b) Bend (r) Release (v) Vibrato


E|-----------------------------------------------------------------2--------
B|--2--2--2--2--2--2--3--5--3--2-----------3--5--3--2-----------------3--5--
G|--------------------------------4--2--4--------------4--2--2--2-----------
D|--------------------------------------------------------------------------
A|--------------------------------------------------------------------------
E|--------------------------------------------------------------------------



E|--------2--------------------------
B|--3--5-----------------------2--2--
G|-----------2--2-----2--2--4--------
D|-----------------4-----------------
A|-----------------------------------
E|-----------------------------------
http://www.guitartabcreator.com
Guitar Tab Creator is intended to store guitar tab created through the tool. It currently does not support in-line text editing. Any text you place in here will be lost. If you need to comment on your tab, please use the "Tab Notes" section located below.