The 7 Modes in A Major! (Can be played in any key.) See bottom of page for names.

(/) Slide Up  (\) Slide Down  (h) Hammer On  (p) Pull Off  (b) Bend (r) Release (v) Vibrato


E|-----------------------------------------4--5--
B|-----------------------------------5--7--------
G|--------------------------4--6--7--------------
D|-----------------4--6--7-----------------------
A|--------4--5--7--------------------------------
E|--5--7-----------------------------------------



E|--------------------------------------------5--
B|-----------------------------------5--7--8-----
G|--------------------------4--5--7--------------
D|-----------------4--5--7-----------------------
A|-----------5--7--------------------------------
E|--5--7--8--------------------------------------



E|--------------------------------------------5--
B|-----------------------------------5--6--8-----
G|-----------------------------5--7--------------
D|--------------------5--7--8--------------------
A|-----------5--7--8-----------------------------
E|--5--6--8--------------------------------------



E|-----------------------------------------4--5--
B|--------------------------------4--5--7--------
G|--------------------------4--6-----------------
D|-----------------4--6--7-----------------------
A|--------4--6--7--------------------------------
E|--5--7-----------------------------------------



E|--------------------------------------------5--
B|-----------------------------------5--7--8-----
G|--------------------------4--6--7--------------
D|-----------------4--5--7-----------------------
A|--------4--5--7--------------------------------
E|--5--7-----------------------------------------



E|--------------------------------------------5--
B|-----------------------------------5--6--8-----
G|--------------------------4--5--7--------------
D|--------------------5--7-----------------------
A|-----------5--7--8-----------------------------
E|--5--7--8--------------------------------------



E|--------------------------------------------5--
B|--------------------------------------6--8-----
G|-----------------------------5--7--8-----------
D|--------------------5--7--8--------------------
A|-----------5--6--8-----------------------------
E|--5--6--8--------------------------------------
http://www.guitartabcreator.com
Guitar Tab Creator is intended to store guitar tab created through the tool. It currently does not support in-line text editing. Any text you place in here will be lost. If you need to comment on your tab, please use the "Tab Notes" section located below.