demo???

(/) Slide Up  (\) Slide Down  (h) Hammer On  (p) Pull Off  (b) Bend (r) Release (v) Vibrato
E|-------------------------------------------------------------------------------------------------
B|--8-----8-----8-----8-----------8-----------8-----------10-----------10-----------8--------------
G|-----9-----9-----9-----9-----9-----9-----9-----9-----9------9-----9------9-----9-----9-----9-----
D|-------------------------------------------------------------------------------------------------
A|--7-----------7-------------------------------------------------------------0-----------0--------
E|--------------------------8-----------8-----------7------------7---------------------------------



E|-------------------------------------------------------------------------------------------------
B|--8-----8-----8-----8-----------8-----------8-----------10-----------10-----------8--------------
G|-----9-----9-----9-----9-----9-----9-----9-----9-----9------9-----9------9-----9-----9-----9-----
D|-------------------------------------------------------------------------------------------------
A|--7-----------7-------------------------------------------------------------0-----------0--------
E|--------------------------8-----------8-----------7------------7---------------------------------



E|------------------------------------------------------------------------------------------------
B|--8-----8-----8-----8-----10-----10-----10-----10-----8-----8-----8-----8-----10-----10-----10--
G|-----9-----9-----9-----9------9------9------9------9-----9-----9-----9-----9------9------9------
D|------------------------------------------------------------------------------------------------
A|--7-----7---------------------------------------------7-----7-----------------------------------
E|--------------8-----8-----7------7------7------7------------------8-----8-----7------7------7---



E|-----------------------------------------------------------------------------------------------
B|-----10-----8-----8-----8-----8-----10-----10-----10-----10-----8-----8-----8-----8-----10-----
G|--9------9-----9-----9-----9-----9------9------9------9------9-----9-----9-----9-----9------9--
D|-----------------------------------------------------------------------------------------------
A|------------7-----7---------------------------------------------7-----7------------------------
E|-----7------------------8-----8-----7------7------7------7------------------8-----8-----7------



E|--------------------------------------------------------------------------------------------------
B|-----0-----0-----0-----0-----0-----0-----0-----0-----0-----0-----0-----0-----0-----0-----0-----0--
G|--------------------------------------------------------------------------------------------------
D|--------------------------------------------------------------------------------------------------
A|--------------2-----2-----3-----3-----------------------------2-----2-----3-----3-----------------
E|--0-----0-----------------------------2-----2-----0-----0-----------------------------2-----2-----



E|--------------------------------------------------------------------------------------------------
B|-----0-----0-----0-----0-----0-----0-----0-----0-----0-----0-----0-----0-----0-----0-----0-----0--
G|--------------------------------------------------------------------------------------------------
D|--------------------------------------------------------------------------------------------------
A|--------3-----2-----0-----------------------------------3-----2-----0-----------------------------
E|--0-----------------------2-----3-----2-----0-----0-----------------------2-----3-----2-----0-----
http://www.guitartabcreator.com
Guitar Tab Creator is intended to store guitar tab created through the tool. It currently does not support in-line text editing. Any text you place in here will be lost. If you need to comment on your tab, please use the "Tab Notes" section located below.