bridge

(/) Slide Up  (\) Slide Down  (h) Hammer On  (p) Pull Off  (b) Bend (r) Release (v) Vibrato


E|------------------------------------------------------------------------------------------------
B|-----8-----8-----8-----8------8------8------8------8-----8-----8-----8-----8-----8-----8-----8--
G|------------------------------------------------------------------------------------------------
D|------------------------------------------------------------------------------------------------
A|--7-----7-----7-----7-----10-----10-----10-----10-----9-----9-----9-----9-----7-----7-----7-----
E|------------------------------------------------------------------------------------------------



E|------------------------------------------------------------
B|-----8-----8-----8-----8-----8-----10-----10-----10-----10--
G|------------------------------------------------------------
D|------------------------------------------------------------
A|--7---------------------------------------------------------
E|--------8-----8-----7-----7-----7------7------7------7------
http://www.guitartabcreator.com
Guitar Tab Creator is intended to store guitar tab created through the tool. It currently does not support in-line text editing. Any text you place in here will be lost. If you need to comment on your tab, please use the "Tab Notes" section located below.