riff 1

(/) Slide Up  (\) Slide Down  (h) Hammer On  (p) Pull Off  (b) Bend (r) Release (v) Vibrato


E|--------------------------------------------------------------------------
B|--------------------------------------------------------------------------
G|--------1-----4--1h2p1-----------1-----4--1h2p1--------1-----4--1h2p1-----
D|-----2-----2------------2-----2-----2---------------2-----2------------2--
A|--4------------------------2---------------------0------------------------
E|--------------------------------------------------------------------------



E|--------------------------------------------------
B|--------------------------------------------------
G|--------1-----------------------1-----------------
D|-----2-----2--------4--------4-----4-----2--4--2--
A|-----------------2-----2--0-----------0-----------
E|--2-----------4-----------------------------------
http://www.guitartabcreator.com
Guitar Tab Creator is intended to store guitar tab created through the tool. It currently does not support in-line text editing. Any text you place in here will be lost. If you need to comment on your tab, please use the "Tab Notes" section located below.