Primavera

(/) Slide Up  (\) Slide Down  (h) Hammer On  (p) Pull Off  (b) Bend (r) Release (v) Vibrato


E|-6-6-x-x-5-5-5-5-5-x-x-x-x-4-4-x-x-3-3-3-3-3-x-x---
B|-6-6-x-x-6-6-6-6-6-x-x-x-x-4-4-x-x-4-4-4-4-4-x-x---
G|-5-5-x-x-5-5-5-5-5-x-x-x-x-3-3-x-x-3-3-3-3-3-x-x---
D|-5-5-x-x-5-5-5-5-5-x-x-x-x-3-3-x-x-3-3-3-3-3-x-x---
A|-5-5-x-x-5-5-5-5-5-x-x-x-x-3-3-x-x-3-3-3-3-3-x-x---
E|-5-5-x-x-5-5-5-5-5-x-x-x-x-3-3-x-x-3-3-3-3-3-x-x-x-



E|-x-x-2-2-x-x-1-1-1-1-1-x-x-x-x-x---5------5------3------3---
B|-x-x-2-2-x-x-2-2-2-2-2-x-x-x-x-x-----7------7------3------5-
G|-x-x-1-1-x-x-1-1-1-1-1-x-x-x-x-x-6------6------4------4-----
D|-x-x-1-1-x-x-1-1-1-1-1-x-x-x-x-x-7------7------5------5-----
A|-x-x-1-1-x-x-1-1-1-1-1-x-x-x-x-x-5------5------3------3-----
E|-x-x-1-1-x-x-1-1-1-1-1-x-x-x-x-x-x--------------------------
http://www.guitartabcreator.com
Guitar Tab Creator is intended to store guitar tab created through the tool. It currently does not support in-line text editing. Any text you place in here will be lost. If you need to comment on your tab, please use the "Tab Notes" section located below.