Black

(/) Slide Up  (\) Slide Down  (h) Hammer On  (p) Pull Off  (b) Bend (r) Release (v) Vibrato

Stave 1:

E|-----------------------------------------------------------------
B|-----------------------------------------------------------------
G|-----------------------------------------------------------------
D|-----------------------------------------------------------------
A|-----------------------------------------------------------------
E|-0-0-0-0-0-0-2-1-0-0-0-0-0-0-2-1-0-0-0-0-0-0-2-1-0-0-0-0-0-0-2-1-

Stave 2:

E|---------------------
B|---------------------
G|---------------------
D|-2-2-2-2-------------
A|-2-2-2-2-6-5-3-5-2-1-
E|-0-0-0-0-6-5-3-5-2-1-

Stave 3:

E|-
B|-
G|-
D|-
A|-
E|-

http://www.guitartabcreator.com
Guitar Tab Creator is intended to store guitar tab created through the tool. It currently does not support in-line text editing. Any text you place in here will be lost. If you need to comment on your tab, please use the "Tab Notes" section located below.