1

(/) Slide Up  (\) Slide Down  (h) Hammer On  (p) Pull Off  (b) Bend (r) Release (v) Vibrato


E|-----------------------------------------------------------------
B|-----------2---------------2---------------5---------------5-----
G|-----0---------------0---------------5---------------5-----------
D|---4-----4-----4---4-----4-----4---5-----5-----5---5-----5-----5-
A|-5-----5-----5---5-----5-----5---8-----8-----8---8-----8-----8---
E|-----------------------------------------------------------------



E|-----------------------------------------------------------------
B|-----------3---------------3---------5---------------5-----------
G|-----5---------------5---------------------5---------------5-----
D|---4-----4-----4---4-----4-----4---5-----5-----5---5-----5-----5-
A|-5-----5-----5---5-----5-----5---8-----8-----8---8-----8-----8---
E|-----------------------------------------------------------------



E|-
B|-
G|-
D|-
A|-
E|-
http://www.guitartabcreator.com
Guitar Tab Creator is intended to store guitar tab created through the tool. It currently does not support in-line text editing. Any text you place in here will be lost. If you need to comment on your tab, please use the "Tab Notes" section located below.