Using Octave Exercise to find all F notes

(/) Slide Up  (\) Slide Down  (h) Hammer On  (p) Pull Off  (b) Bend (r) Release (v) Vibrato


E|---1------------------------------------------------------------13------13--------
B|-----------------------------6------6---------------------------------------------
G|---------------------------------------------------10------10---------------------
D|------------------3------3--------------------------------------------------------
A|----------------------------------------8------8----------------------------------
E|-------1------1--------------------------------------------------------------13---



E|---------------------------------------
B|---------------------18------18--------
G|---------------------------------------
D|--------15------15---------------------
A|----------------------------------20---
E|---13----------------------------------
http://www.guitartabcreator.com
Guitar Tab Creator is intended to store guitar tab created through the tool. It currently does not support in-line text editing. Any text you place in here will be lost. If you need to comment on your tab, please use the "Tab Notes" section located below.