Octaves - One string skip, 2 string skip, 4 string skip

(/) Slide Up  (\) Slide Down  (h) Hammer On  (p) Pull Off  (b) Bend (r) Release (v) Vibrato


E|-----------------------------8--
B|---------------------8----------
G|-------------7------------5-----
D|-----7------------5-------------
A|----------5---------------------
E|--5-----------------------------



E|-------------------------------------2----
B|-----------------------2------------------
G|---------2--------------------------------
D|--------------------------------5---------
A|------------------5-----------------------
E|----5-------------------------------------



E|---------5----
B|--------------
G|--------------
D|--------------
A|--------------
E|----5---------
http://www.guitartabcreator.com
Guitar Tab Creator is intended to store guitar tab created through the tool. It currently does not support in-line text editing. Any text you place in here will be lost. If you need to comment on your tab, please use the "Tab Notes" section located below.