The 'B string' rule

(/) Slide Up  (\) Slide Down  (h) Hammer On  (p) Pull Off  (b) Bend (r) Release (v) Vibrato
E|-----------------------------
B|-----------------------------
G|--------------------6--8--9--
D|-----------6--7--9-----------
A|--6--7--9--------------------
E|-----------------------------



E|---------------------7--9--10--
B|-----------7--8--10------------
G|--6--7--9----------------------
D|-------------------------------
A|-------------------------------
E|-------------------------------



E|-----------------------2-----
B|-----------------2-----3-----
G|-----------1-----2-----2-----
D|-----1-----2-----2-----------
A|-----2-----2-----------------
E|-----2-----------------------



E|--
B|--
G|--
D|--
A|--
E|--
http://www.guitartabcreator.com

Rule 2 – Transferring

Rule 2 – Transferring voicings/patterns from a lower to higher string set. Any note that moves from the second (B) string on the higher set to the third (G) string on the lower adjacent set must be lowered one fret. Remember higher to lower, lower third (G) string by one fret

Rule 1 – Transferring

Rule 1 – Transferring voicings/patterns from a lower to higher string set. Any note that moves from the third (G) on the lower set to the second (B) string on the higher adjacent set must be raised one fret. Remember lower to higher raise second (B) string by one fret

Guitar Tab Creator is intended to store guitar tab created through the tool. It currently does not support in-line text editing. Any text you place in here will be lost. If you need to comment on your tab, please use the "Tab Notes" section located below.