Song 1

(/) Slide Up  (\) Slide Down  (h) Hammer On  (p) Pull Off  (b) Bend (r) Release (v) Vibrato

E|--------------------------------------------------------------------------------------
B|--------0--------0--------0--------0--------3--------3--------3--------3--------0-----
G|--------------------------------------------------------------------------------------
D|-----2--------2--------2--------2--------2--------2--------2--------2--------3--------
A|--2--------2--------2--------2--------3--------3--------3--------3--------4-----------
E|--------------------------------------------------------------------------------------



E|-----------------------------------------------------------------------------------
B|--------0--------0--------0--------0--------0--------0--------0--------0--------0--
G|-----------------------------------------------------------------------------------
D|-----3--------3--------3--------4--------4--------4--------4--------5--------5-----
A|--4--------4--------4--------5--------5--------5--------5--------6--------6--------
E|-----------------------------------------------------------------------------------



E|--------------------------------------------------------
B|--------0--------0--------0--------0--------0-----------
G|--------------------------------------------------------
D|-----5--------5--------4--------3--------2--------2-----
A|--6--------6--------5--------4--------3--------2--------
E|--------------------------------------------------------



E|----0----0----0----0----0----0----0----0----0----0----0----0----0----0----0----0----0----0----
B|----0----0----0----0----0----0----1----1----1----1----1----1----1----1----1----1----1----1----
G|----0----0----0----0----0----0----0----0----0----0----0----0----2----2----2----2----2----2----
D|----2----2----2----2----2----2----2----2----2----2----2----2----2----2----2----2----2----2----
A|----2----2----2----2----2----2----3----3----3----3----3----3----0----0----0----0----0----0----
E|----0----0----0----0----0----0----0----0----0----0----0----0----------------------------------
http://www.guitartabcreator.com
Guitar Tab Creator is intended to store guitar tab created through the tool. It currently does not support in-line text editing. Any text you place in here will be lost. If you need to comment on your tab, please use the "Tab Notes" section located below.