Rooftops Intro (G)

(/) Slide Up  (\) Slide Down  (h) Hammer On  (p) Pull Off  (b) Bend (r) Release (v) Vibrato

E|------------------------------------------15----------
B|------12----------12----------12--12--13------13--12--
G|----------12--14------12------------------------------
D|--14--------------------------------------------------
A|--------------------------15--------------------------
E|------------------------------------------------------



E|--------------------------------------------------
B|------12----------12----------12--13--15--15--15--
G|----------12--14------12--------------------------
D|--14----------------------------------------------
A|--------------------------15----------------------
E|--------------------------------------------------
http://www.guitartabcreator.com
Guitar Tab Creator is intended to store guitar tab created through the tool. It currently does not support in-line text editing. Any text you place in here will be lost. If you need to comment on your tab, please use the "Tab Notes" section located below.