Danava - Hemisphere of Shadows (Bass Tab)

(/) Slide Up  (\) Slide Down  (h) Hammer On  (p) Pull Off  (b) Bend (r) Release (v) Vibrato

E|-----------------------------------------
B|-----------------------------------------
G|--8--5-----5-----------------------------
D|--------8-----8--5--4--5--4--1--3--1-----
A|--------------------------------------3--
E|-----------------------------------------



E|----------------------------------------
B|----------------------------------------
G|----------------------------------------
D|--8--5--4--5--4--1--3--1-----3--3p1-----
A|--------------------------3----------3--
E|----------------------------------------



E|----------------------------------------------------------------------------------
B|----------------------------------------------------------------------------------
G|----------------------------------------------------------------------------------
D|----------------------------------------------------------------------------------
A|--3--6-----------3--6-------------6----------6-----------3--6-------------6-------
E|--------3--6--6--------3--6--6h8-----8p6--8-----3--6--6--------3--6--6h8-----8p6--



E|------------------------------------------------------------------------------------
B|------------------------------------------------------------------------------------
G|------------------------------------------------------------------------------------
D|-----6----------------------6--------------6----------------------6-----------------
A|--8-----8p6--------6--8--8-----8--6--7--8-----8p6--------6--8--8-----8--7--8--9-----
E|-------------8--8----------------------------------8--8-----------------------------



E|----------------------------------------------------------------
B|----------------------------------------------------------------
G|----------12--------------12-------------11-------------10------
D|------12------12------12------12-----11------11-----10------10--
A|--10--------------10--------------9--------------8--------------
E|----------------------------------------------------------------



E|-----------------------------------------------
B|-----------------------------------------------
G|-----------------------------------------------
D|-----------------------------------------------
A|--6--3-----3--3--3--------6--3-----3-----3-----
E|--------6-----------6--3--------6-----6-----6--
http://www.guitartabcreator.com
Guitar Tab Creator is intended to store guitar tab created through the tool. It currently does not support in-line text editing. Any text you place in here will be lost. If you need to comment on your tab, please use the "Tab Notes" section located below.