Billy Jean cover by Civil Wars

(/) Slide Up  (\) Slide Down  (h) Hammer On  (p) Pull Off  (b) Bend (r) Release (v) Vibrato
E|-----0-----------5--0--------0--------------
B|-----0-----------5--0--------0-----------3--
G|--------0-----------------0-----0--------4--
D|--------------4-----------------------4-----
A|-----------2-----------------------2--------
E|--0--------------------0--------------------



E|-----0-----------5--0--------0--------
B|-----0-----------5--0--------0--------
G|--------0-----------------0-----0-----
D|--------------4--------------------2--
A|-----------2-----------------------2--
E|--0--------------------0-----------0--



E|-----0-----------------------0--------
B|-----0-----------3--0--------0--------
G|--------0--------4--0-----0-----0-----
D|--------------4-----------------------
A|-----------2--------------------------
E|--0--------------------0-----------0--



E|-------------------------------------------------0-----------5--0--------0--------
B|--------1p0--------1--------1--------1-----------0-----------5--0--------0--------
G|--------2----------2--------2--------2--------0-----0-----------------0-----0-----
D|-----2----------------2--------2--------2-----------------4--------------------2--
A|--0----------0-----------0-----------------------------2-----------------------2--
E|----------------0-----------------0--------0-----------------------0-----------0--



E|-----------------------------------------------------------------2--2--2--
B|--1--1--1-----------1--1--1-----------1--1--1-----------1--1--1--4--4--4--
G|--------------------------------------------------------2--2--2--4--4--4--
D|--2--2--2--2--2--2--2--2--2--2--2--2--2--2--2--2--2--2--2--2--2--4--4--4--
A|--3--3--3--2--2--2--3--3--3--2--2--2--3--3--3--2--2--2-----------2--2--2--
E|--------------------------------------------------------------------------
http://www.guitartabcreator.com
Guitar Tab Creator is intended to store guitar tab created through the tool. It currently does not support in-line text editing. Any text you place in here will be lost. If you need to comment on your tab, please use the "Tab Notes" section located below.