Remember

(/) Slide Up  (\) Slide Down  (h) Hammer On  (p) Pull Off  (b) Bend (r) Release (v) Vibrato
E|---------------------0---------------0---------------------------------
B|-----1-------1---1-----1---1-----1-----1---1-------1-------1-----1-1---
G|---2-------0-------0-----0---0-----0-----0---0---2-------0-------------
D|-3-----0h2-----0---------------0---------------3-----0h2---------------
A|-------------------------------------------------------------0h2---3---
E|-----------------------------------------------------------------------



E|--0---------------------------------------
B|-----1-----------1----------1-------1--1--
G|--------0-----2----------0----------------
D|-----------3--------0h2-------------------
A|-------------------------------0h2-----3--
E|------------------------------------------



E|-------3-------------------------------3---------------3-------------------------------3---------
B|---1-----1---1-----1---1---1---1---1-----1---1-----1-----1---1-----1---1---1---1---1-----1---1---
G|-----0-----0---0-----0-------0-------0-----0---0-----0-----0---0-----0-------0-------0-----0---0-
D|-------------------------------------------------------------------------------------------------
A|-3---------------3-------2-------0---------------0---------------0-------2-------3---------------
E|-------------------------------------------------------------------------------------------------



E|-------3---------------3---------------3-----------
B|---1-----1---1-----1-----1---1-----1-----1---1-----
G|-----0-----0---0-----0-----0---0-----0-----0---0---
D|---------------------------------------------------
A|---------------------------------------------------
E|-3---------------3---------------3---------------3-
http://www.guitartabcreator.com
Guitar Tab Creator is intended to store guitar tab created through the tool. It currently does not support in-line text editing. Any text you place in here will be lost. If you need to comment on your tab, please use the "Tab Notes" section located below.