We Killed Music

(/) Slide Up  (\) Slide Down  (h) Hammer On  (p) Pull Off  (b) Bend (r) Release (v) Vibrato

Heavy bass part, only these 4 notes first time it's played, then becomes part of the verse.
G|---------
D|---------
A|---------
E|-2-2-2-2-


Verse
G|-------------------------------------------------------------------------------------
D|-------------------------------------------------------------------------------------
A|-------------------------------------------------------------------------------------
E|-6-8-8-8-8-8-8-8-8-6-6-6-6-8-8-8-8-8-8-8-8-6-6-6-6-8-8-8-8-8-8-8-8-6-6-6-6-8-8-8-8-8-


Chorus

G|-----------------------------------------------------------------
D|-----------------------------------------------------------------
A|---------------------------------6-6-6-6-6-6-6-6-3-3-3-3-3-3-3-3-
E|-4-4-4-4-4-4-4-4-4-4-4-4-4-4-4-4---------------------------------

B|-------------------------------------------------------------------
G|-------------------------------------------------------------------
D|-------------------------------------------------------------------
A|-----------------------------------6-6-6-6-6-6-6-6-8-8-8-8-8-8-8-8-
E|-4-4-4-4-4-4-4-4-4-4-4-4-4-4-4-4-4---------------------------------

G|-------------------------------------------------------------------
D|-------------------------------------------------------------------
A|---------------------------------6-6-6-6-6-6-6-6-3-3-3-3-3-3-3-3-3-
E|-4-4-4-4-4-4-4-4-4-4-4-4-4-4-4-4-----------------------------------

G|-------------------------------------------------------------------
D|-------------------------------------------------------------------
A|-----------------------------------6-6-6-6-6-6-6-6-7-7-7-7-7-7-7-7-
E|-4-4-4-4-4-4-4-4-4-4-4-4-4-4-4-4-4---------------------------------

Slidey riff

G|----------------------------
D|----------------------------
A|-3/13-13-13\3-3/13-13-13-13\
E|----------------------------
http://www.guitartabcreator.com
Guitar Tab Creator is intended to store guitar tab created through the tool. It currently does not support in-line text editing. Any text you place in here will be lost. If you need to comment on your tab, please use the "Tab Notes" section located below.