Scumbags (Drop D)

(/) Slide Up  (\) Slide Down  (h) Hammer On  (p) Pull Off  (b) Bend (r) Release (v) Vibrato

Verse, Main hook and also plays thru the last bit of this riff at the very end of the song.
G|----------------------------- ----------------------
D|----------------------------- ----------------------
A|----------------------------- ----------------------
D|-0-0-7-0-6-0-0-3-0-0-0-3-4-3- 0-0-7-0-6-0-0-3-3-3-5-

Chorus
G|-----------------------------------------------------------
D|-----------------------------------------------------------
A|-----------------------------------------------------------
D|-8-8-8-8-8-8-8-5-5-5-5-5-5-5-0-0-0-0-0-0-0-5-5-5-5-5-5-5---

Bridge
G|-----------------------------------------------------------------
D|-----------------------------------------------------------------
A|-----------------------------------------------------------------
D|-1-1-1-1-1-1-1-1-1-1-1-1-1-1-1-1-1-1-1-1-1-1-1-1-1-1-1-1-1-1-1-1-

G|-----------------------------------------------------------------
D|-----------------------------------------------------------------
A|-----------------------------------------------------------------
D|-3-3-3-3-3-3-3-3-3-3-3-3-3-3-3-3-3-3-3-3-3-3-3-3-3-3-3-3-3-3-3-3-

G|-----------------------------------------------------------------
D|-----------------------------------------------------------------
A|-----------------------------------------------------------------
D|-5-5-5-5-5-5-5-5-5-5-5-5-5-5-5-5-6-6-6-6-6-6-6-6-7-7-7-7-7-7-7-7-


Breakdown.
G|-----------------------------------
D|-----------------------------------
A|-----------------------------------
D|-8-8-8-5-5-5-0-0-0-5-0-0-5-0-0-5-0-
http://www.guitartabcreator.com
Guitar Tab Creator is intended to store guitar tab created through the tool. It currently does not support in-line text editing. Any text you place in here will be lost. If you need to comment on your tab, please use the "Tab Notes" section located below.