Rebel Girls

(/) Slide Up  (\) Slide Down  (h) Hammer On  (p) Pull Off  (b) Bend (r) Release (v) Vibrato

Intro, also end of chorus and outro. It's really easy...
G|---------------------------------------------------------------
D|---------------------------------------------------------------
A|---------------------------------------------------------------
E|-8-8-8-8-8-8-8-8-8-8-8-8-8-8-8-8-8-8-8-8-8-8-8-8-8-8-8-8-8-8-8-

Verse (feel free to add variation)
G|-----------------------------------------------------------------
D|-----------------------------------------------------------------
A|-----------------------------------------------------------------
E|-8-8-8-8-8-8-8-8-8-8-8-8-8-8-8-8-8-8-8-8-8-8-8-8-8-8-8-8-8-8-8-8-

G|------------------------------------------------------------------------
D|----------------------------8-10-10-10-10-10-10-10-10-10-10-10-10-8-8-8-
A|-6-6-6-6-6-6-6-8-8-8-8-8-10---------------------------------------------
E|------------------------------------------------------------------------

Chorus
G|---------------------------------------------------------
D|---------------------------------------------------------
A|---------------8-8-8-8-8-8-8---------------6-6-6-6-6-6-6-
E|-4-4-4-4-4-4-4---------------8-8-8-8-8-8-8---------------

G|-----------------------------------------------------------
D|-----------------------------------------------------------
A|---------------8-8-8-8-8-8-8-------------------------------
E|-4-4-4-4-4-4-4---------------8-8-8-8-8-8-8-8-8-8-8-8-8-8-8-

(There's a bass fill that you can mess around with right before this next bit)

All Your Love part
G|---------------------------------------------------------------
D|---------------------------------------------------------------
A|---------------------------------6-6-6-6-6-6-6-6-6-6-6-6-6-6-6-
E|-8-8-8-8-8-8-8-8-8-8-8-8-8-8-8-8-------------------------------


G|---------------------------------------------------------
D|---------------------------------------------------------
A|---------------8-8-8-8-8-8-8---------------8-8-8-8-8-8-8-
E|-4-4-4-4-4-4-4---------------4-4-4-4-4-4-4---------------
http://www.guitartabcreator.com
Guitar Tab Creator is intended to store guitar tab created through the tool. It currently does not support in-line text editing. Any text you place in here will be lost. If you need to comment on your tab, please use the "Tab Notes" section located below.