Party

(/) Slide Up  (\) Slide Down  (h) Hammer On  (p) Pull Off  (b) Bend (r) Release (v) Vibrato

Verse
G|-------------------------------------------------------------
D|-------------------------------------------------------------
A|---------------5-5-5-5-4-5-5-5---------------5-5-5-5-4-5-5-5-
E|-3-3-3-3-2-2-2-----------------3-3-3-3-2-2-2-----------------
(This part repeats once before the 1st chorus)
G|------------------------------- ----------------------------
D|------------------------------- ----------------------------
A|---------------5-5-5-5-4-5-5-5- 7-7-7-7-7-7-7-3-3-3-3-3-3-3-
E|-3-3-3-3-2-2-2----------------- ----------------------------


Chorus
G|-----------------------------------------------------------------
D|-----------------------------------------------------------------
A|---------------------------------5-5-5-5-5-5-5-5-5-5-5-5-5-5-5-5-
E|-3-3-3-3-3-3-3-3-3-3-3-3-3-3-3-3---------------------------------

G|-----------------------------------------------------
D|-----------------------------------------------------
A|-7-7-7-7-7-7-7-7-7-7-7-7-7-7-7-7-3-3-3-3-3-3-3-3-3-3-
E|-----------------------------------------------------
Chorus jam (not played after 3rd chorus
G|-----------------------------------------------------------------------------------------
D|-----------------------------------------------------------------------------------------
A|---------------------------------------------5-5-5-5-5-5-5-5-5-5-5-0-0-0-0-0-0-0-0-0-0-0-
E|-0-0-0-0-0-0-0-0-0-0-0-3-3-3-3-3-3-3-3-3-3-3---------------------------------------------

Break down (plays after 2nd and 3rd chorus)
(tremolo picking on the 15th fret)
G|--------------------------------------------------------------------------------------------------
D|--------------------------------------------------------------------------------------------------
A|-3-3-3-3-3-3-3-3-3-3/15-15-15-15-15-15-15-15-15-15-15-15-15-15-15-15-15-15-15-15-15-15-15-15-15---
E|--------------------------------------------------------------------------------------------------
http://www.guitartabcreator.com
Guitar Tab Creator is intended to store guitar tab created through the tool. It currently does not support in-line text editing. Any text you place in here will be lost. If you need to comment on your tab, please use the "Tab Notes" section located below.