Lock and Load

Verse

G|-----------------------------------------------------------------
D|-----------------------------------------------------------------
A|-5-5-5-5-5-5-5-5-5-5-5-5-5-5-5-5---------------------------------
E|---------------------------------5-5-5-5-5-5-5-5-5-5-5-5-5-5-5-5-

G|-----------------------------------------------------------------
D|-----------------------------------------------------------------
A|-3-3-3-3-3-3-3-3-3-3-3-3-3-3-3-3---------------------------------
E|---------------------------------3-3-3-3-3-3-3-3-3-3-3-3-3-3-3-3-

Chorus
G|-----------------------------------------------------------------
D|-----------------------------------------------------------------
A|-----------------------------------------------------------------
E|-2-2-2-2-2-2-2-2-2-2-2-2-2-2-2-2-5-5-5-5-5-5-5-5-5-5-5-5-5-5-5-5-

G|-----------------------------------------------------------------
D|-----------------------------------------------------------------
A|-7-7-7-7-7-7-7-7-7-7-7-7-7-7-7-7---------------------------------
E|---------------------------------0-0-0-0-0-0-0-0-0-0-0-0-0-0-0-0-

End of Chorus (goes to 5th fret on A instead of 7th)
G|-----------------------------------------------------------------
D|-----------------------------------------------------------------
A|-5-5-5-5-5-5-5-5-5-5-5-5-5-5-5-5---------------------------------
E|---------------------------------5-5-5-5-5-5-5-5-5-5-5-5-5-5-5-5-

Bridge
G|-------------------------- ---------------------------
D|-------------------------- ---------------------------
A|-------------------------- -----------------------4-5-
E|-0-0-7-0-0-6-0-0-5-0-0-3-5 -0-0-7-0-0-6-0-0-5-0-0-----


Bridge outro (goes to this part the 4th time thru the whole bridge riff, comes in at the gap)
G|---------------------
D|---------------------
A|-------6-6-6-6-6-6-6-
E|-3-3-3---------------
Guitar Tab Creator is intended to store guitar tab created through the tool. It currently does not support in-line text editing. Any text you place in here will be lost. If you need to comment on your tab, please use the "Tab Notes" section located below.