Imitation

(/) Slide Up  (\) Slide Down  (h) Hammer On  (p) Pull Off  (b) Bend (r) Release (v) Vibrato

Intro
G|----------------------------------------------------------------------
D|----------------------------------------------------------------------
A|--/12-0-0-0-0-0-0-0-0-0-0-0-0-0-0-0-0-0-0-0-0-0-0-0-0-0-0-0-0-0-0-0-0-
E|----------------------------------------------------------------------

Verse, also outro
G|-------------------------------------------------------------------
D|-------------------------------------------------------------------
A|-0-0-0-0-0-0-0-0-0-0-0-0-0-0-0-0-0-0-0-0-0-0-0-0-0-0-0-0-0-1-1-1-1-
E|-------------------------------------------------------------------


Pre-Chorus
G|---------------------------------------------------
D|---------------------------------------------------
A|-5-5-5-5-4-4-4-4-2-2-0-0-5-5-5-5-4-4-4-4-2-2-7-7---
E|---------------------------------------------------

G|-----------------------------------------------------------------
D|-----------------------------------------------------------------
A|-0-0-0-0-0-0-0-0-0-0-0-0-0-0-0-0-0-0-0-0-0-0-0-0-0-0-0-0-0-0-0-0-
E|-----------------------------------------------------------------


Chorus (repeats 3 times)
G|-----------------------------------------------------------------
D|-----------------------------------------------------------------
A|---------------------------------5-5-5-5-5-5-5-5-5-5-5-5-5-5-5-5-
E|-2-2-2-2-2-2-2-2-2-2-2-2-2-2-2-2---------------------------------
Chorus (4th time)
G|-------------------------------------------------------------------------------------------------
D|-------------------------------------------------------------------------------------------------
A|-------------------------------------------------------------------------------------------------
E|-2-2-2-2-2-2-2-2-2-2-2-2-2-2-2-2-3-3-3-3-3-3-3-3-3-3-3-3-3-3-3-3-3-3-3-3-3-3-3-3-3-3-3-3-3-3-3-3-


Half Time part w/guitar solo
G|-----------------------------------------------------------------------
D|-------------------0-0-0-0-0-0-0-0-0-----------------------------------
A|-0-0-0-0-0-0-0-0-0-----------------------------------2-2-2-2-2-2-2-2-2-
E|-------------------------------------2-2-2-2-2-2-2-2-------------------
http://www.guitartabcreator.com
Guitar Tab Creator is intended to store guitar tab created through the tool. It currently does not support in-line text editing. Any text you place in here will be lost. If you need to comment on your tab, please use the "Tab Notes" section located below.