I Ain't Tryin

I Ain't Tryin

Intro Riff
G|-----------------
D|-----------------
A|-------2-2-7-7-7-
E|-4-4-2-----------


Verse
G|-------------------------------------------------------------------------------------
D|-------------------------------------------------------------------------------------
A|-------------------------------------------------------------------------------------
E|-7-7-7-7-7-7-7-7-7-7-7-7-7-7-7-7-7-0-0-0-0-0-0-0-0-0-0-0-0-0-0-0-4-4-4-4-4-2-2-2-2-2-


Verse part 2. (repeats after the second time, stays on open A for the lead into chorus)
G|---------------------
D|---------------------
A|-2-4-4-4-4-0-0-0-0-0-
E|---------------------


Chorus
E|-----------------------------------------------------------------
B|-----------------------------------------------------------------
G|-----------------------------------------------------------------
D|-----------------------------------------------------------------
A|-7-7-7-7-7-7-7-7-7-7-7-7-7-7-7-7---------------------------------
E|---------------------------------7-7-7-7-7-7-7-7-7-7-7-7-7-7-7-7-


Chorus This part repeats 3 times then goes to Intro

G|--------------------------------- --------------------------------
D|--------------------------------- --------------------------------
A|--------------------------------- ------------------------2-2-4-4-
E|-9-9-9-9-9-9-9-9-9-9-9-9-9-9-9-9- 5-5-5-4-4-4-2-2-2-0-0-0---------


Bridge. (The build up after the bridge is all open A)

G|---------------------------------------------------------------
D|---------------------------------------------------------------
A|---------------------------------------------------------------
E|-4-4-4-4-4-4-4-4-4-4-4-4-4-4-4-0-0-0-0-0-0-0-0-0-0-0-0-0-0-0-0-
http://www.guitartabcreator.com
Guitar Tab Creator is intended to store guitar tab created through the tool. It currently does not support in-line text editing. Any text you place in here will be lost. If you need to comment on your tab, please use the "Tab Notes" section located below.