Hate Us

(/) Slide Up  (\) Slide Down  (h) Hammer On  (p) Pull Off  (b) Bend (r) Release (v) Vibrato

Intro, Main riff, Verse
G|-----------------------------------------------
D|-----------------------------------------------
A|---------9-9-9-9-9-9-9---------7-7-7-7-7-7-7-7-
E|-7-7-7-7---------------3-3-3-3-----------------


Pre Chorus (only before 1st chorus)
G|-------------------------------------------------------------------
D|-------------------------------------------------------------------
A|---------------------------------3-3-3-3-3-3-3-3-3-3-3-3-3-3-3-3-3-
E|-3-3-3-3-3-3-3-3-3-3-3-3-3-3-3-3-----------------------------------

This bit comes in after the guitar only part.
G|--------------------------------------------------------------------
D|--------------------------------------------------------------------
A|-2-2-2-2-2-2-2-2-2-2-2/12-12-12-12-12-12-12-12-12-12-12-12-12-12-12-
E|--------------------------------------------------------------------

Chorus
G|-------------------------------------------------------------------
D|-------------------------------------------------------------------
A|-------------------------------------------------------------------
E|-0-0-0-0-0-0-0-0-0-0-0-0-0-0-0-0-3-3-3-3-3-3-3-3-3-3-3-3-3-3-3-3---

G|-----------------------------------------------------------------
D|-----------------------------------------------------------------
A|-2-2-2-2-2-2-2-2-2-2-2-2-2-2-2-2-3-3-3-3-3-3-3-3-3-3-3-3-3-3-3-3-
E|-----------------------------------------------------------------

Noisey Outro, feel free to fuck around on this part
G|---------------------------------------
D|---------------------------------------
A|---------------------------------------
E|-7-7-7-7-8-8-8-7-8-8-8-7-7-7-7-8-8-8b8-
http://www.guitartabcreator.com
Guitar Tab Creator is intended to store guitar tab created through the tool. It currently does not support in-line text editing. Any text you place in here will be lost. If you need to comment on your tab, please use the "Tab Notes" section located below.