H-Bomb

(/) Slide Up  (\) Slide Down  (h) Hammer On  (p) Pull Off  (b) Bend (r) Release (v) Vibrato

Verse (needs variation)
G|-------------------------------------------------------------------------------------
D|-------------------------------------------------------------------------------------
A|-10-10-10-10-10-10-10-13-13-13-13-13-13-13-------------------------------------------
E|-------------------------------------------11-11-11-11-11-11-11-11-11-11-11-11-11-11-


Chorus
G|-----------------------------------------------------------
D|-----------------------------------------------------------
A|-3-3-3-3-3-----------3-3-3-3-3-----------3-3-3-3-3-----6-6-
E|-----------4-4-1-1-1-----------4-4-1-1-1-----------4-4-----


Chorus (I'm only singing for you repeating)
G|-------------------------------------------------------
D|-------------------------------------------------------
A|-4-4-4-4-4-4-4-4-4-4-4-4-4-4-4-4-4-4-4-4-4-4-4-4-4-4-4-
E|-------------------------------------------------------
http://www.guitartabcreator.com
Guitar Tab Creator is intended to store guitar tab created through the tool. It currently does not support in-line text editing. Any text you place in here will be lost. If you need to comment on your tab, please use the "Tab Notes" section located below.