Generation Nothing

(/) Slide Up  (\) Slide Down  (h) Hammer On  (p) Pull Off  (b) Bend (r) Release (v) Vibrato


Intro, main riff. (Also outro)
G|-------------------------------------
D|-8-8-------------8-8-------------8-8-
A|-6-6-8-8-8-8-8-8-6-6-8-8-8-8-8-8-6-6-
E|-----6-6-6-6-6-6-----6-6-6-6-6-6-----


Verse
G|-------------------------------------------------------------------------
D|-------------------------------------------------------------------------
A|-----------------6-6-6-6-6-6-6-6---------------------------5-6-6-6-6-6-6-
E|-6-6-6-6-6-6-6-6-----------------3-3-3-3-3-3-3-3-4-4-4-4-4---------------

Pre-Chorus (dance beat part)
G|-----------------------------------------------------------------
D|-----------------------------------------------------------------
A|-6-6-6-6-6-6-6-6-6-6-6-6-6-6-6-6---------------------------------
E|---------------------------------6-6-6-6-6-6-6-6-8-8-8-8-8-8-8-8-

G|---------------------------------------------------------------
D|---------------------------------------------------------------
A|-6-6-6-6-6-6-6-6-6-6-6-6-6-6-6---------------------------------
E|-------------------------------3-3-3-3-3-3-3-3-4-4-4-4-4-4-4-4-


Chorus
G|-----------------------------------------------------------------------------------------
D|-----------------------------------------------------------------------------------------
A|-3-3-3-3-3-3-3-3-3-3-3-----------------------6-6-6-6-6-6-6-6-6-6-6-----------------------
E|-----------------------4-4-4-4-4-4-4-4-4-4-4-----------------------6-6-6-6-6-6-6-6-6-6-6-

G|-----------------------------------------------
D|-----------------------------------------------
A|-3-3-3-3-3-3-3-3-3-3-3-----------6-6-6-6-6-6-6-
E|-----------------------4-4-4-4-4---------------

Bridge, w/guitar solo)

G|-----------------------------------------
D|-----------------------------------------
A|-3-3-1-1-3-3-3-1-1-3-6-6-5-5-6-6-6-5-5-6-
E|-----------------------------------------
http://www.guitartabcreator.com
Guitar Tab Creator is intended to store guitar tab created through the tool. It currently does not support in-line text editing. Any text you place in here will be lost. If you need to comment on your tab, please use the "Tab Notes" section located below.