Entertainers

(/) Slide Up  (\) Slide Down  (h) Hammer On  (p) Pull Off  (b) Bend (r) Release (v) Vibrato

Chorus
G|------------------------------------------------------------- ------------------------
D|------------------------------------------------------------- ------------------------
A|-----------7-7-7-7-7-----------7-7-7-7-7-----------7-7-7-7-7- ------------------------
E|-7-7-7-7-7-----------4-4-4-4-4-----------7-7-7-7-7----------- 1-1-1-1-1-0-0-0-0-0-0-0-

Verse
G|---------------------------------------------------------------
D|---------------------------------------------------------------
A|---------------------------------------------------------------
E|-4-4-4-4-4-4-4-4-4-4-4-4-4-4-4-4-4-4-4-4-4-4-4-4-4-4-4-4-4-4-4-

G|-----------------------------------------------------------
D|-----------------------------------------------------------
A|-------------------------------7-7-7-7-7-7-7-4-4-4-4-4-4-4-
E|-7-7-7-7-7-7-7-7-7-7-7-7-7-7-7-----------------------------


Pre-Chorus (take out your cellphone and just smash it on the fucking ground...)
G|-----------------------------------------------------------------
D|-----------------------------------------------------------------
A|-----------------------------------------------------------------
E|-4-4-4-4-4-4-4-4-4-4-4-4-4-4-4-4-7-7-7-7-7-7-7-7-7-7-7-7-7-7-7-7-

G|-------------------------------------------------------------
D|-------------------------------------------------------------
A|-4-4-4-4-4-4-4-4-4-4-4-4-4-4-4-7-7-7-7-7-7-7-4-4-4-4-4-4-4-4-
E|-------------------------------------------------------------

Then goes back into chorus.

Chorus outro (played at the end of the 2nd and 3rd choruses instead of going to the 1)
G|-----------------------------------------------------------------------
D|-----------------------------------------------------------------------
A|---------7-7-6-6-7-7-6-6---------7-7-6-6-7-7-6-6---------7-7-6-6-7-7-6-
E|-9-9-9-9-----------------9-9-9-9-----------------9-9-9-9---------------

Outro (switches to straight 8ths during the 4 on the floor breakdown)
G|-------------------------------------------------------------------------
D|-------------------------------------------------------------------------
A|-------------------------------------------------------------------------
E|-7-7-7-7-7-7-7-7-7-5-5-5-5-5-5-5-5-5-4-4-4-4-4-4-4-4-4-3-3-3-3-3-5-5-5-5-
http://www.guitartabcreator.com
Guitar Tab Creator is intended to store guitar tab created through the tool. It currently does not support in-line text editing. Any text you place in here will be lost. If you need to comment on your tab, please use the "Tab Notes" section located below.