Avenged Sevenfold- So Far Away- Acoustic solo

(/) Slide Up  (\) Slide Down  (h) Hammer On  (p) Pull Off  (b) Bend (r) Release (v) Vibrato


E|--0---------0----2-----3------------------------------------------------------------------------
B|-----0--------0-----3-----3-----1-----------1---------------------------------------------------
G|--------0--------2-----------------2-----2-----2-----4-----2-----0----------0---------2-----2----
D|-----------2--------------------------2-----------------0-----0-----2----2-----2-2/4-----4-----4-
A|--------------------------------0-------------------------------------2--------------------------
E|--0--------------------------------------------------3-----2-----0-------------------------------



E|---------------------------|.
B|---------------------------|.
G|--4--------0-----------0---|. Repeat
D|--------2-----2-----2-----2|.
A|-----3-----------3---------|. Manny^.^
E|---------------------------|.
http://www.guitartabcreator.com
Guitar Tab Creator is intended to store guitar tab created through the tool. It currently does not support in-line text editing. Any text you place in here will be lost. If you need to comment on your tab, please use the "Tab Notes" section located below.